Saturday, February 19, 2011

For all the Heart lovers

I figured since i'm going out to see Heart in concert tonight, why not put up a small guitar tab for one of their popular songs "Crazy On You"  I haven't learned how to play the whole song, the beginning acoustic part is pretty tricky, might take me awhile to get it down.  But i always love playing that part in the song where they first bring in the electric guitar.  Anyway heres the tab for that part

e--------------------------│
B--------------------------│
G--------------------------│  X 2
D-----2--0-----------------│
A--0--------3--2--0--------│
E--------------------1--3--│

e-----------------------------------------------------------
B-----------------------------------------------------------
G-----------------------------------------------------------
D-----2--0--------------2--0--------------2--0--------------
A--0--------3--2--0-----------3--2--0-----------3--2-----0--
E--------------------3-----------------1--------------3-----

6 comments:

  1. Always loved this song. I thought it was most fitting in Harold and Kumar.

    ReplyDelete
  2. Nice, you should put the chords and lyrics too though.

    ReplyDelete
  3. Yeah, good song, thanks for the notes.

    ReplyDelete